Proste tabulatury

W tym miejscu znajdziesz łatwe tabulatury, które nie powinny sprawić Ci żadnych problemów, a wręcz przeciwnie, dostarczyć wiele radości i satysfakcji z gry.

Habanera z opery Carmen

e|------------|-----------------|--------------|---------------|-------------|
H|------3--2--|--1--1--1--0-----|--------------|---------------|-------3--2--|
G|------------|--------------3--|--2---2-1--0--|---------0-----|-------------|
D|------------|-----------------|--------------|--3--2-3----3--|--2----------|
A|------------|-----------------|--------------|---------------|-------------|
E|------------|-----------------|--------------|---------------|-------------|

|-----------------|--------------|---------------|-------------|
|--1--1--1--0-----|--------------|---------------|-------3--2--|
|--------------3--|--2---2-0-----|---------------|-------------|
|-----------------|-----------3--|--2--0-2-3--2--|--0----------|
|-----------------|--------------|---------------|-------------|
|-----------------|--------------|---------------|-------------|

|-----------------|--------------|---------------|-------------|
|--1--1--1--0-----|--------------|---------------|-------3--2--|
|--------------3--|--2---2-1--0--|---------0-----|-------------|
|-----------------|--------------|--3--2-3----3--|--2----------|
|-----------------|--------------|---------------|-------------|
|-----------------|--------------|---------------|-------------|

|-----------------|--------------|---------------|--------------|--------------|
|--1--1--1--0-----|--------------|---------------|--------------|--------------|
|--------------3--|--2---2-0-----|---------------|------2-------|------2-------|
|-----------------|-----------3--|--2--0-2-3--2--|--0-----0--2--|--4-----4--2--|
|-----------------|--------------|---------------|--------------|--------------|
|-----------------|--------------|---------------|--------------|--------------|

|--------------|----------------|--------------|--------------|--------------|
|--------------|----------0-----|------0-------|------0-------|--------------|
|-----------0--|--2-2-2-2----2--|--0-----------|--0-----0-----|--------0--2--|
|--0---2-4-----|----------------|--------2--4--|-----------4--|--2---4-------|
|--------------|----------------|--------------|--------------|--------------|
|--------------|----------------|--------------|--------------|--------------|

|----------------|-----------0--|--2-----------|--------------|----------------|
|--0-0-0-0-2--0--|--------3-----|--------------|--------------|----------3--2--|
|----------------|--2---2-------|------2-------|-----------0--|--2-2-2-2-------|
|----------------|--------------|--------4--2--|--0---2-4-----|----------------|
|----------------|--------------|--------------|--------------|----------------|
|----------------|--------------|--------------|--------------|----------------|

|--------0--2--|--3-----------|--------------|----------2-0-2-0-|-----------|
|------0-------|------0-------|--------------|--2-0-------------|--3--------|
|--0-----------|--------0-----|--------0--2--|------1-2---------|-----------|
|--------------|-----------4--|--2---4-------|------------------|-----------|
|--------------|--------------|--------------|------------------|-----------|
|--------------|--------------|--------------|------------------|-----------|

Gliniarz z Beverly Hills

e|-------------------|-----0------1--0---|-----0--5--------------|
H|-----1------3------|-----------------1-|------------------0----|
G|--2-----2-2----2-0-|--2-----2-2--------|--2--------2-0-0-----2-|
D|-------------------|-------------------|-----------------2-----|
A|-------------------|-------------------|-----------------------|
E|-------------------|-------------------|-----------------------|

Kaczuchy

e|-----------------|-----------------|-----------------|--------------|
H|-----------------|-----------------|-----------------|--------------|
G|-----------------|-----------------|-----------------|--------------|
D|-----------------|-----------------|-----------------|--------------|
A|-0-0-2-2-----0---|-0-0-2-2-----0---|-0-0-2-2-5-5-4---|--4--2--0-----|
E|---------2-2-----|---------2-2-----|-----------------|-----------3--|

e|-----------------|-----------------|-----------------|--------------|
H|-----------------|-----------------|-----------------|--------------|
G|-----------------|-----------------|-----------------|--------------|
D|-----------------|-----------------|-----------------|--------------|
A|-----0-0---------|-----0-0---------|-----0-0-3-3-2---|--2--0--------|
E|-3-3-----0-0-3---|-3-3-----0-0-3---|-3-3-------------|--------3--1--|

Koziołek Matołek

e|------------------8-----8-----8----|
H|-------5-6-5--------8-----8-----8--|
G|--5-7-----------5-----5-----5------|
D|-----------------------------------|
A|-----------------------------------|
E|-----------------------------------|

LaBamba

e|-------------------------|-------------------------|
H|-------------------------|-------------------------|
G|----------0-----2-----0--|-------------------------|
D|-------2-----3-----3-----|----------0--3--3--2--0--|
A|--3----------------------|-------2-----------------|
E|-------------------------|----3--------------------|

Mazurek Dąbrowskiego

e|-------------5-------|-------------|
H|-5-6-8-8-8-5---8-6-5-|-----8---6-5-|
G|---------------------|-7-7---7-----|
D|---------------------|-------------|
A|---------------------|-------------|
E|---------------------|-------------|

e|-------------5-------|-------------|
H|-5-6-8-8-8-5---8-6-5-|-----8-------|
G|---------------------|-7-7---4-7-5-|
D|---------------------|-------------|
A|---------------------|-------------|
E|---------------------|-------------|

e|-------------------5-5----------8~-77-5-------------|
H|-----6-6-5--6-66-6-----8~~--5-8----------88-6-------|
G|-7-7------------------------------------------4-7-5-|
D|----------------------------------------------------|
A|----------------------------------------------------|
E|----------------------------------------------------|

Morskie opowieści

e|-0-0-0-0-0-----0-|-----------------|-0-0-0-0-0-2-3-5-|-3-0----------|
H|-------------1---|-3-3-3-3-3---0-3-|-----------------|-----3-0------|
G|-----------2-----|-----------0-----|-----------------|---------2-2--|
D|-----------------|-----------------|-----------------|--------------|
A|-----------------|-----------------|-----------------|--------------|
E|-----------------|-----------------|-----------------|--------------|

Oda do radości

e|-----------------------------------------------|
H|--0--0--1--3--3--1--0--------------0--0--------|
D|-----------------------2--0--0--2--------2-2---|
G|-----------------------------------------------|
A|-----------------------------------------------|
E|-----------------------------------------------|

e|-----------------------------------------------|
H|--0--0--1--3--3--1--0--------------0-----------|
D|-----------------------2--0--0--2-----2--0-0---|
G|-----------------------------------------------|
A|-----------------------------------------------|
E|-----------------------------------------------|

e|-----------------------------------------------|
H|--------0-------0-1-0-------0-1-0--------------|
G|--2--2----0--2--------0--2---------2--0--2-----|
D|--------------------------------------------0--|
A|-----------------------------------------------|
E|-----------------------------------------------|

e|-----------------------------------------------|
H|--0--0--1--3--3--1--0--------------0-----------|
D|-----------------------2--0--0--2-----2--0-0---|
G|-----------------------------------------------|
A|-----------------------------------------------|
E|-----------------------------------------------|

Piraci z Karaibów

e--------------------------------------------------|
H-------------5-6-6---6-8-5-5----------------------|
G---5-7-7---7-------------------7-5-5h7------------|
D-7------------------------------------------------|
A--------------------------------------------------|
E--------------------------------------------------|

e--------------------------------------------------|
H-------------5-6-6---6-8-5-5----------------------|
G---5-7-7---7-------------------7-5-7~~------------|
D-7------------------------------------------------|
A--------------------------------------------------|
E--------------------------------------------------|

e-----------------------5-6-6---5---5--------------|
H-------------6-8-8---8-----------8----------------|
G---5-7-7---7-------------------------7------------|
D-7------------------------------------------------|
A--------------------------------------------------|
E--------------------------------------------------|

e----------5-6-------------------------------------|
H---6-8-8------------6-5-5-------------------------|
G-7------------7---7---------7-5-5h7---------------|
D--------------------------------------------------|
A--------------------------------------------------|
E--------------------------------------------------|

e--------------------------------------------------|
H-10-11--------------------------------------------|
G-------14-14-14-14\12---12-10-9-10-9-7------------|
D--------------------------------------------------|
A--------------------------------------------------|
E--------------------------------------------------|

Stawka większa niż życie

e|------0-2-----0-2-5--4---------------0-3--2---------------------------|
H|--0-3-------3-----------5P3H5----2-3---------3P2H3--3--5--3-----------|
G|-------------------------------------------------------------3--4~~---|
D|----------------------------------------------------------------------|
A|----------------------------------------------------------------------|
E|----------------------------------------------------------------------|

Sto lat

|------------------|--------------------|----------------------|-------------|
|------------------|--------------------|------------3-2-------|-2--2--2--3--|
|-2-2--2-4-2-0---0-|-0--0--0-2-0--------|-2-2-2-2--2-----4-3-4-|-------------|
|--4-4---------4---|--2--2-------4-2-4~-|----4---4-------------|-------------|
|------------------|--------------------|----------------------|-------------|
|------------------|--------------------|----------------------|-------------|

Top Gun

|----3--3--1-0-1-0-------------0-----0--1--0-----0-------|
|-1----------------3--3--1--3-----3-----------1-----3----|
|--------------------------------------------------------|
|--------------------------------------------------------|
|--------------------------------------------------------|
|--------------------------------------------------------|

|----3--3--1-0-1-0-------------0-----0--1--0-----3~~-----|
|-1----------------3--3--1--3-----3-----------1----------|
|--------------------------------------------------------|
|--------------------------------------------------------|
|--------------------------------------------------------|
|--------------------------------------------------------|

|----9--9--7-6-7-6-------------6-----6--7--6-----6-------|
|-7----------------9--9--7--9-----9-----------7-----9----|
|--------------------------------------------------------|
|--------------------------------------------------------|
|--------------------------------------------------------|
|--------------------------------------------------------|

|----9--9--7-6-7-6-------------6-----6--7--6-------------|
|-7----------------9--9--7--9-----9-----------9--9--7----|
|--------------------------------------------------------|
|--------------------------------------------------------|
|--------------------------------------------------------|
|--------------------------------------------------------|

Wlazł kotek na płotek

e|-----------|-----------|-----------|-----------|-----------|-----------|
H|-----------|-----------|-----------|-----------|-----------|-----------|
G|--0--------|-----------|------0----|--0--------|-----------|-----------|
D|-----2--2--|--3--0--0--|----2------|-----2--2--|--3--0--0--|----2------|
A|-----------|-----------|--3--------|-----------|-----------|--3---3----|
E|-----------|-----------|-----------|-----------|-----------|-----------|

Kurs gry na gitarze

Kurs gry na gitarze w wersji do druku

pobierz teraz »