Kolędy na gitarę - chwyty i tabulatury

Kolędy mają to do siebie, że oprócz sezonowości są z reguły proste do zagrania. Dlatego poniżej znajdziesz te najbardziej znane, które pozwolą Ci umilić rodzinną Wigilię (oczywiście jeżeli babcia nie stwierdzi, że może jednak lepiej włączyć płytę ;).

Zamieszczam również wersję do wydruku:

pdf Kolędy gitarowe

Cicha noc

e|------------------|------------------|------------------|-----------------|
H|------------------|------------------|--3----3--0----0--|--1----1---------|
G|--0---2-0---------|--0---2-0---------|------------------|----------0------|
D|-----------2------|-----------2------|------------------|-----------------|
A|------------------|------------------|------------------|-----------------|
E|------------------|------------------|------------------|-----------------|

|-------------------|------------------|------------------|-----------------|
|----------1---0----|------------------|---------1---0----|-----------------|
|--2----2--------2--|--0---2-0------0--|--2---2--------2--|--0---2-0-----0--|
|-------------------|-----------2------|------------------|-----------2-----|
|-------------------|------------------|------------------|-----------------|
|-------------------|------------------|------------------|-----------------|

|----------1--------|---------0------|--------------------|---------------||
|--3----3------3-0--|--1-------------|--1-----------------|---------------||
|-------------------|----------------|------0----0--------|---------------||
|-------------------|----------------|--------2------3-0--|---------------||
|-------------------|----------------|--------------------|--3------------||
|-------------------|----------------|--------------------|---------------||

Cicha noc - midi

C
Cicha noc, święta noc,
G7	          C
Pokój niesie ludziom wszem.
F          C
A u żłobka Matka Święta
F          C
Czuwa sama uśmiechnięta,
G7             C
Nad Dzieciątka snem,
C       G7     C
Nad Dzieciątka snem.

Cicha noc, święta noc,
Pastuszkowie od swych trzód
Biegną wielce zadziwieni,
Za anielskim głosem pieni,
Gdzie się spełnił cud,
Gdzie się spełnił cud.

Cicha noc, święta noc,
Narodzony Boży Syn.
Pan wielkiego majestatu,
Niesie dziś całemu światu
Odkupienie win,
Odkupienie win.

Do szopy hej pasterze

e|-----------------|------------------|-----------------|-----------------|
H|-----------------|------------------|-----------------|-----------------|
G|-----------------|------------------|-----------------|-----------------|
D|-----------------|--0---------------|-------0----0----|--2--0-----------|
A|-------3----3----|-----3--2----2----|-----------------|--------3--------|
E|--3--------------|------------------|--3--------------|-----------------|

|-----------------|------------------|-----------------|-----------------|
|-----------------|------------------|-----------------|-----------------|
|-----------------|------------------|-----------------|-----------------|
|-----------------|--0---------------|-------0----0----|--2--0-----------|
|-------3----3----|-----3--2----2----|-----------------|--------3--------|
|--3--------------|------------------|--3--------------|-----------------|

|-----------------|------------------|-----------------|-----------------|
|-----------------|------------------|-----------------|-----------------|
|-----------------|------------------|------------2----|--0-----0--------|
|-------2----2----|--3--2--0----0----|--0----3---------|-----4-----------|
|-----------------|------------------|-----------------|-----------------|
|--3--------------|------------------|-----------------|-----------------|

|-----------------|------------------|-----------------|-----------------||
|-----------------|------------------|-----------------|-----------------||
|-----------------|------------------|-----------------|-----------------||
|-------2----2----|--3--2--0----0----|-------0----0----|--2--0-----------||
|-----------------|------------------|-----------------|--------3--------||
|--3--------------|------------------|--3--------------|-----------------||

Do szopy hej pasterze - midi

   C            G
Do szopy, hej pasterze,
                  C
Do Szopy, bo tam cud!
                  G
Syn Boży w żłobie leży,
                 C
By zbawić ludzki ród.

               d
Śpiewajcie Aniołowie,
   G              C
Pasterze, grajcie Mu.
                  G
Kłaniajcie się Królowie,
                  C
Nie budźcie Go ze snu.

Padnijmy na kolana,
To Dziecię to nasz Bóg,
Witajmy swego Pana;
Wdzięczności złóżmy dług.

Śpiewajcie...

Dzisiaj w Betlejem

e|-------------------|-------------------|------------------|----------------|
H|-------------------|-------------------|------------------|----------------|
G|-------------------|-------------------|--0--2--0---------|----------------|
D|----------------0--|--2----2--0--2--3--|-------------3----|--2----0--------|
A|--3----3-----3-----|-------------------|------------------|----------------|
E|----------3--------|-------------------|------------------|----------------|

|-------------------|-------------------|------------------|----------------|
|-------------------|-------------------|------------------|----------------|
|-------------------|-------------------|--0--2--0---------|----------------|
|----------------0--|--2----2--0--2--3--|-------------3----|--2----0--------|
|--3----3-----3-----|-------------------|------------------|----------------|
|----------3--------|-------------------|------------------|----------------|

|-------------------|-------------------|------------------|------------------|
|-------------------|-------------------|------------------|------------------|
|--0----0-----------|-------------------|--0---0-----------|------------------|
|----------3--2--0--|----------------0--|---------3--2--0--|---------------0--|
|-------------------|--3----3-----3-----|------------------|--3---3-----3-----|
|-------------------|----------3--------|------------------|---------3--------|

|--------------------|--------------------|------------------|-----------------|
|--------------------|--------------------|------------------|-----------------|
|--0--2--0-----------|--0--2--0-----------|--0--0--2----0----|-----------------|
|-----------3--2--3--|-----------3--2--3--|------------------|--3--2--0--------|
|--------------------|--------------------|------------------|-------------3---|
|--------------------|--------------------|------------------|-----------------|

Dzisiaj w Betelejem - midi

C                G7
Dzisiaj w Betlejem,
C                G7
Dzisiaj w Betlejem
C      F C G7
Wesoła nowina,
C             G7
Że Panna czysta,
C             G7
Że Panna czysta
C      F  C G7
Porodziła Syna.

G7
Chrystus się rodzi,
C
Nas oswobodzi,
G7
Anieli grają,
C
Króle witają,
C
Pasterze śpiewają,
C
Bydlęta klękają,
      d G7        C
Cuda, cuda ogłaszają!

Maryja Panna,
Maryja Panna
Dzieciątko piastuje.
I Józef Święty,
I Józef Święty
Ono pielęgnuje.

Chrystus się rodzi...

Choć w stajeneczce,
Choć w stajeneczce
Panna Syna rodzi,
Przecież On wkrótce,
Przecież On wkrótce
Ludzi oswobodzi.

Chrystus się rodzi...

I Trzej Królowie,
I Trzej Królowie
Od wschodu przybyli
I dary Panu
I dary Panu
Kosztowne złożyli

Chrystus się rodzi...

Pójdźmy też i my,
Pójdźmy też i my
Przywitać Jezusa.
Króla nad królmi,
Króla nad królmi
Uwielbić Chrystusa.

Chrystus się rodzi... 

Lulajże Jezuniu

e|-----------------|------------------|-----------------|----------------|
H|-----------------|------------------|-----------------|----------------|
G|-----------------|--0---------------|-----------------|--2----0--------|
D|--2----2----2----|-------3--2--3----|--0----0----3----|----------------|
A|-----------------|------------------|-----------------|----------------|
E|-----------------|------------------|-----------------|----------------|

|-----------------|------------------|-----------------|----------------|
|-----------------|------------------|-----------------|----------------|
|-----------------|--0---------------|-------0---------|----------------|
|--2----2----2----|-------3--2--3----|--0-----------3--|--3----2--------|
|-----------------|------------------|-----------------|----------------|
|-----------------|------------------|-----------------|----------------|

|------------------|-----------------|-----------------|----------------|
|------------1--0--|-----------------|-----------------|----------------|
|--0----0----------|--2----2------0--|--------------2--|--2----0--------|
|------------------|-----------------|--3----3---------|----------------|
|------------------|-----------------|-----------------|----------------|
|------------------|-----------------|-----------------|----------------|

|-----------------|------------------|-----------------|----------------||
|-----------------|------------------|-----------------|----------------||
|-----------------|--0---------------|-------0---------|----------------||
|--2----2----2----|-------3--2--3----|--0-----------3--|--3----2--------||
|-----------------|------------------|-----------------|----------------||
|-----------------|------------------|-----------------|----------------||

Lulajże Jezuniu - midi

C       d        G7     C
Lulajże Jezuniu, moja perełko,
a       d       G7        C
Lulaj, ulubione me pieścidełko.
C       F         G7       C
Lulajże Jezuniu, lulajże, lulaj,
a        d        G7       C
A Ty Go, Matulu, w płaczu utulaj.

Zamknijże znużone płaczem powieczki,
Utulże zemdlone łkaniem usteczki.
Lulajże Jezuniu, lulajże, lulaj,
A Ty Go, Matulu, w płaczu utulaj.

Lulajże piękniuchny mój aniołeczku,
Lulajże wdzięczniuchny świata kwiateczku.
Lulajże Jezuniu, lulajże, lulaj,
A Ty Go, Matulu, w płaczu utulaj. 

Przybieżeli do Betlejem

e||--------------|--------------|------------|-----------|--------------|
H||--------------|--------------|------------|-----------|--------------|
G||--------------|--------------|--0----2----|--0--------|--------------|
D||-----------0--|--2--0--2--3--|------------|-----------|-----------0--|
A||--3--2--3-----|--------------|------------|-----------|--3--2--3-----|
E||--------------|--------------|------------|-----------|--------------|

|--------------|------------|-----------||--------------|--------------|
|--------------|------------|-----------||---1----------|--------------|
|--------------|--0----2----|--0--------||*-------0--0--|--2--0--------|
|--2--0--2--3--|------------|-----------||*-------------|--------3--2--|
|--------------|------------|-----------||--------------|--------------|
|--------------|------------|-----------||--------------|--------------|

|-------------|--------------|------------|-----------|------------|
|-------------|--------------|------------|-----------|------------|
|----------2--|--0-----------|------------|--0--------|------------|
|--3----3-----|-----3--2--0--|--2----3----|-----------|--2----0----|
|-------------|--------------|------------|-----------|------------|
|-------------|--------------|------------|-----------|------------|

|------------||
|------------||
|-----------*||
|-----------*||
|--3---------||
|------------||

Przybieżeli do Betlejem - midi

C                       C F  C
Przybieżeli do Betlejem pasterze
                              C  F C
Grając skocznie Dzieciąteczku na lirze.
C         F
Chwała na wysokości,
G7        C
Chwała na wysokości,
C F C   C  G7 C
A pokój na ziemi.

Oddawali swa ukłony w pokorze
Tobie z serca ochotnego, o Boże!
Chwała na wysokości,
Chwała na wysokości,
A pokój na ziemi.

Anioł Pański sam ogłosił te dziwy,
Których oni nie słyszeli jak żywi.
Chwała na wysokości,
Chwała na wysokości,
A pokój na ziemi.

Dziwili się napowietrznej muzyce
I myśleli, co to będzie za Dziecię?
Chwała na wysokości,
Chwała na wysokości,
A pokój na ziemi.

Wśród nocnej ciszy

e|---------------------|--------------------|--0----0----1---------|
H|--1--------3----0----|--1-----------------|-----------------3----|
G|---------------------|-----------0--------|----------------------|
D|---------------------|--------------------|----------------------|
A|---------------------|--------------------|----------------------|
E|---------------------|--------------------|----------------------|

|--0----------------|---------------------|--------------------|
|-------------------|--1--------3----0----|--1-----------------|
|-------------------|---------------------|-----------0--------|
|-------------------|---------------------|--------------------|
|-------------------|---------------------|--------------------|
|-------------------|---------------------|--------------------|

|--0----0----1---------|--0----------------|-------0---------0----|
|-----------------3----|-------------------|--1---------1---------|
|----------------------|-------------------|----------------------|
|----------------------|-------------------|----------------------|
|----------------------|-------------------|----------------------|
|----------------------|-------------------|----------------------|

|--1-------------------|-------0---------0----|--1-------------------|
|---------3--0---------|--1---------1---------|---------3--0---------|
|-----------------0----|----------------------|-----------------0----|
|----------------------|----------------------|----------------------|
|----------------------|----------------------|----------------------|
|----------------------|----------------------|----------------------|

|----------------------|--0----------------|----------------------|
|--1----1----3----3----|-------------------|--1----1----3----3----|
|----------------------|-------------------|----------------------|
|----------------------|-------------------|----------------------|
|----------------------|-------------------|----------------------|
|----------------------|-------------------|----------------------|

|-------------------||
|--1----------------||
|-------------------||
|-------------------||
|-------------------||
|-------------------||

Wśród nocnej ciszy - midi

C      F     C G   C    a   F   G C
Wśród nocnej ciszy głos się rozchodzi,
C    F   G  C G    C   a   F   G C
Wstańcie pasterze, Bóg się wam rodzi!
C                F    G
Czym prędzej się wybierajcie,
C           F      G       C   a F   G C
Do Betlejem pospieszajcie, przywitać Pana.

Poszli, znaleźli Dzieciątko w żłobie
Wszystkimi znaki danymi sobie.
Jako Bogu cześć Mu dali,
A witając zawołali z wielkiej radości.

Ach. Witaj, Zbawco z dawna żądany,
Cztery tysiące lat wyglądany!
Na Ciebie króle, prorocy czekali,
A Tyś tej nocy nam się objawił.

I my czekamy na Ciebie, Pana,
A skoro przyjdziesz na głos kapłana,
Padniemy na twarz przed Tobą,
Wierząc, żeś jest pod osobą chleba i wina. 

Polecam Ci również kurs video: Gitara - kolędy dla początkujących


Mistrz Gitary

Ćwiczenia słuchu dla gitarzystów

zacznij teraz »