1 (edytowany przez Totalq 2009-11-22 16:08:11)

Temat: Kostka - problem

Mam na przykład takie coś:

|----------------------------------------------|
|----------------------------------------------|
|.---------------------------------------------|
|.-6-7-9---7-6h7p6-4-5-5-4-7-4-2-3-5---3-2h3p2-|
|--7-----7---------5-----5---5-3-----3---------|
|--0-------------------------------------------|

Jak zagrać te pogrubione dźwięki? Wszystkie muszą być zagrane równocześnie, mam racje?  Palcami po prostu pociąga się jednym palcem, jedną strunę, a czy da się da się takie coś zagrać kostką?  Jeśli tak to w jaki sposób. Pytam bo wolę grać kostką.

2 (edytowany przez lis1994 2009-11-22 16:31:44)

Odp: Kostka - problem

po prostu "przejedz" kostką po tych trzech strunach z góry lub z dołu ;] i do tabów używaj funkcji code gdy piszesz posta, będzie to wyglądać tak:

|----------------------------------------------|
|----------------------------------------------|
|.---------------------------------------------|
|.-6-7-9---7-6h7p6-4-5-5-4-7-4-2-3-5---3-2h3p2-|
|--7-----7---------5-----5---5-3-----3---------|
|--0-------------------------------------------|
"Gitara jest ludzką duszą wysyłającą wiadomość poprzez sześć strun."
Yamaha F-310
Schecter Omen Extreme DVS + Laney LV 100 + Soldano Atomic 5W [DIY] + Line 6 Floor POD

3

Odp: Kostka - problem

Serdeczne dzięki, a gdy mam taką sytuacje? To też się jakoś da zagrać kostką? :

|--------------------------|--------2-----------------|
|--0--------2--0-----------|--0-----------0--------2--|
|--------------------1-----|--------------------------|
|--------2--------2--------|-----2-----2--------2-----|
|-----2-----------------2--|-----------------2--------|
|--0-----------------0-----|--------------0-----------|

4

Odp: Kostka - problem

Może być problem...

Osobiście takie coś gram palcami.

5

Odp: Kostka - problem

Palcami takie coś trudno zagrać nie jest wink

6

Odp: Kostka - problem

takie coś jest chyba niemożliwe do zagrania kostką ;]

"Gitara jest ludzką duszą wysyłającą wiadomość poprzez sześć strun."
Yamaha F-310
Schecter Omen Extreme DVS + Laney LV 100 + Soldano Atomic 5W [DIY] + Line 6 Floor POD

7

Odp: Kostka - problem

E tam nie możliwe. Wystarczy znaleźć się w dwóch miejscach czasoprzestrzeni jednocześnie. To chyba nie jest zbyt skomplikowane? big_smile

Epiphone Les Paul Standard Plus + Marshall AFD DIY ;] (full lampa) + Dunlop GCB-95

8

Odp: Kostka - problem

Takie coś się gra kostką + palcami

Tak młody jak dzisiaj nie będziesz już nigdy. Bierz gitarę i graj!
Gitara dla początkujących
Ćwiczenia słuchu dla gitarzystów

9 (edytowany przez Panki 2009-11-22 19:36:06)

Odp: Kostka - problem

po pierwsze jak jestes poczatkujacy niezabieraj sie od razu za intro do and justice ;p niedosc ze dosc skopmlikowane to jeszcze sa tam 2 akustyki ;p a co do
|---
|--0
|---
|---
|---
|--0
strune E uderzasz kostka natomiast H 'fakersem' ;p

10

Odp: Kostka - problem

granie kostka jest dosc trudne kostke trzymamy kciuk + palec wskazujacy a reszte (3 palce) mamy wolna zeby grac takie wlasnie jak na  na przyklad wyzej wymenione taby.
Zgadzam sie  Darkiem. Palce + kostka. tlumaczyl tez to kiedys tylko ze po ang. Justin Sandcore czy jak sie pisze to jego nazwisko. www.justinguitar.com

"I'd rather be hated for who I am, than loved for who I am not." Kurt Cobain.

11

Odp: Kostka - problem

Za intro do justice w tym tempie nauki to wezmę się za 10lat... Na razie brakuje mi kasy, także lekcje z nauczycielem MOŻE od września nast. roku :* Po prostu dałem to jako przykład wink

Dzięki wszystkim, już wszystkie jest dla mnie jasne jeśli chodzi o ten temat.