1 (edytowany przez Panki 2011-01-16 16:58:58)

Temat: Tabulatury i Piosenki dla Początkujących

NOWOSC: na dole piosenki na ognisko akordowe tongue

Poradnik/zbiór tabulatur[wystarczy wyciąc, wkleic do googla i dopisac 'tab' ] dla gitarzystów, początkujących oraz średnio-zaawansowanych .
Mam nadzieje że nie będzie już więcej topów z zapytaniami o to jakie tabulatury grac.
Podzieliłem go na 2 części, pierwsza 'AKUSTYK/KLASYK', i 2 'ELEKTRYK', oczywiście taby z AK można grac na Elektryku, na odwrót już nie bardzo, bo brakuje progów [inna sprawa jak ktoś ma cutaway].Prosiłbym o niezamieszczanie komentarzy typu 'czemu niema piosenki X',-niema bo nie tongue jeżeli ktoś ma jakieś zastrzeżenia to pisac na GG 7195630.W niektórych utworach możecie miec problem z szybkim tempem(np.Raining Blood)

AKUSTYK/KLASYK: ===============================================
Metallica          - Fade to Black
                         the Call of Ktulu
                         Battery
                         Master of Puppets
                         Welcome Home(Sanitarium)
                         ...and Justice for All
                         One
                         to Live is to Die
                         the Unforgiven
                         Nothing Else Matters
                         Mama Said
                         the Day That Never Comes
RHCP              - Under the Bridge
SOAD              - Lonely Day
Led Zeppelin    - Stairway to Heaven
G'n'R               - Dont'c Cry
                         Patience
Tenacious D     - Classico
Różne              - Greensleeves
                         Romanza
                         Malaguena
                         Dragon Ball GT Theme
                         Mortal Kombat Theme   
Black Sabbath  - Planet Caravan
the Animals      - House of the Rising Sun
Nirvana            - Come As You Are
                         Smells Like Teen Spirits
                         Polly
J. Hendrix         - Hey Joe
                         Purple Haze

ELEKTRYK: =====================================================
Metallica          - Fade to Black
                        Master of Puppets
                        One
                        Nothing Else Matters
                        the Day That Never Comes
                        Seek And Destroy
                        Battery
                        Enter Sandman
                        For Whom the Bell Tolls
                        Creeping Death
G'n'R              - Sweet Child o'Mine
                        Knockin' on Heaven's Door
Nirvana           - Smells Like Teen Spirits
                        Come As You Are
                        Polly
                        Rape Me
                        Tourette's
Różne             - Goodfather Theme
                      - Star Wars Theme
Black Sabbath - Paranoid
                        Iron Man
                        Planet Caravan
Deep Purple    - Smoke on the water
AC/DC            - Highway to hell
Slayer             - Raining Blood


AKORDOWE: ====================================================
De Mono         - Kochac Inaczej
Wilki               - Son Of the Blue Sky
Perfect            - Autobiografia
                        Ewka
Italo Disco Parade - Kesera
Lady Pank       - Marchewkowe Pole
                        Cisza
                        Mniej Niż Zero
                        Tańcz Głupia Tańcz
                        Zostawcie Tytanika
Varius Manx    - Pocałuj Noc
                        Zamigotał Świat
                        Wolne Ptaki
                        Zanim Zrozumiesz
Lombard         - Przeżyj To Sam
KSU               - Rozkaz
Budka Suflera - Jolka, Jolka
BIG CYC         - Makumba
DŻEM              - Whisky
                        Czerwony Jak Cegła
IRA                - Nadzieja
Richi Valens    - La Bamba
Metallica         - Fade To Black
                       Nothing Else Matters
                        the Unforgiven
Nirvana          - Son Of a Gun
                       Come If You Are
[?]                 - Granica
                        Piwo
                        Krajka
                        Wieczorem
                        Marianna

2

Odp: Tabulatury i Piosenki dla Początkujących

Podoba mi się ta inicjatywa, przyklejam smile

Tak młody jak dzisiaj nie będziesz już nigdy. Bierz gitarę i graj!
Gitara dla początkujących
Ćwiczenia słuchu dla gitarzystów

3

Odp: Tabulatury i Piosenki dla Początkujących

Dodałbym też g'n'r knock knocking's on heaven's door,w sumie można zaliczyc całą piosenkę.The cranberries-zombie(cala piosenka latwa),a house of the rising sun to piosenka Animalsów ;p.

Vintage V100+Marshall VS100

4 (edytowany przez Hardstell 2010-02-25 19:20:45)

Odp: Tabulatury i Piosenki dla Początkujących

Mogwai - Burn Girl Prom Queen Tab

dla super poczatkujacych

http://www.ultimate-guitar.com/tabs/m/m … en_tab.htm

Tuning: Standard (EADGBe)

e|-3---3---3---3---5---5---5---5---0---0---0---0---0---0---0---0-------|
B|---5---5---5---5---5---5---5---5---5---5---5---5---5---5---5---------|
G|---------------------------------------------------------------------------|
D|---------------------------------------------------------------------------|
A|---------------------------------------------------------------------------|
E|---------------------------------------------------------------------------|

Hammer-On/Pull-Off Bit:
e|-3---3---3---3---5---5---5---5---0---0---0---0----h--0---0--p--0---0---|
B|---5---5---5---5---5---5---5---5---5---5---5---5-3^5---5---6^5---5---|
G|------------------------------------------------------------------------------|
D|------------------------------------------------------------------------------|
A|------------------------------------------------------------------------------|
E|------------------------------------------------------------------------------|


Mogwai - Kids Will Be Skeletons Tab

latwy tab

http://www.ultimate-guitar.com/tabs/m/m … ns_tab.htm

a konretnie gitara nr 2


guitar 2:

e|-----------------------------------------|
B|----------2------------------3----------|
G|------2-----2-----------2------2-------|
D|----2---2-----2---0-2----2------2-0--|
A|--0-------------0-----------------------|
E|-----------------------------------------|


Mogwai - Ratts Of The Capital INTRO Tab


Bardzo prosty tab

http://www.ultimate-guitar.com/tabs/m/m … ro_tab.htm

Tuning: Standard


e|------------------------------------------------------------------------------|
B|-3~5-5-5-5-5-6-5-3-1-1-1-1-1-3-1---------------------------------------|
G|---------------------------------------0-2-2-2-2-2-2-2-2-2-1-1-1-4-4-4--|
D|------------------------------------------------------------------------------|
A|------------------------------------------------------------------------------|
E|------------------------------------------------------------------------------|



Mogwai - Hunted By A Freak Tab

Tuning: Standard

Pierwsze 2 taby dosć łatwe

http://www.ultimate-guitar.com/tabs/m/m … ak_tab.htm

pomijam te ostatnia czesc 0-5-7 tongue bo trudno mi to zgarac ale powoli cwicze z tym ;]

Cwicze do tych 1 lini i jade 2 tabulature tez bez 7 ;]

Tuning: Standard


|-------------------------------4---3-----3-----3---3-----3-----3---3-----3----|0----0-----0-----0|>>
|-------------------------------------0-----0---------0-----0----------0-----0--|--------5-----5----|>>
|----------------------------------------------------------------------------------|-------------------|>>
|----------------------------------------------------------------------------------|-------------------|>>
|-----------------------------4---3-----3-----3---3-----3-----3------------------|-/7-----7-----7--|>>
|-----------------------------------------------------------------3-----3-----3-----|-----------------|>>
.                          .

|---0-----0-----0---0-----0-----0---0-----0-----0----0-----0-----0----0-----0-----0-------0---0--|
|-----4-----4---------3-----3---------3-----3----------3-----3----------5-----5-----5---5-------5--|
|-------------------------------------------------------------------------------------------------------|
|-------------------------------------------------------------------------------------------------------|
|-4------4-----4---3-----3-----3---3-----3-----3-------------------/7-----7-----7-----7-----7-----|
|----------------------------------------------------3-----3-----3------------------------------------|


Mogwai - Killing All The Flies Tab

Bardzo latwy tab

http://www.ultimate-guitar.com/tabs/m/m … es_tab.htm


Tuning: standard


guitar 1

|-----0------0------------------------0------0--------------2--------|
|--------------------3-------3-----------------------3---------3-0---|
|----------------------------------------------------------------------|
|----------------------------------------------------------------------|
|--3----3-2----2---------2------2-3----3-2----2---------2---------|
|----------------0-----0--------------------------0-----0------------|

5 (edytowany przez lis1994 2010-02-25 19:11:32)

Odp: Tabulatury i Piosenki dla Początkujących

używaj [ code ] [ /code ] przy tabach ;]

"Gitara jest ludzką duszą wysyłającą wiadomość poprzez sześć strun."
Yamaha F-310
Schecter Omen Extreme DVS + Laney LV 100 + Soldano Atomic 5W [DIY] + Line 6 Floor POD

6 (edytowany przez RaV 2010-02-25 22:42:30)

Odp: Tabulatury i Piosenki dla Początkujących

Harry Nilson - Coconut
http://www.youtube.com/watch?v=Tbgv8PkO9eo
Coś niesamowitego..

            |-------------|
            |-1--------1--|
            |----3------3-|
            |-------2-----|
            |-3-----------|
            |-------3-----|

Wiem że mogą być problemy z solówką po refrenie po 2 zwrotce , ale dacie radę. Możecie też spróbować zagrać samą code, ale ona też nie należy do najłatwiejszych ...
i tabulatura "w oryginale" http://www.fretplay.com/tabs/n/nilsson_ … -tab.shtml

7

Odp: Tabulatury i Piosenki dla Początkujących

A jak sie gra takie taby gdzie 2 naraz struny sie szarpie bo jak to to nie umiem

8

Odp: Tabulatury i Piosenki dla Początkujących

Jesli chodiz ci o te powyzsze to palcami.

Vintage V100+Marshall VS100

9

Odp: Tabulatury i Piosenki dla Początkujących

Black Sabbath- Iron Man i, z
Metallica- The  Unforgiven z
Metallica- Whiskey in the jar i,si, z, r
GNR- Paradice City i, z, r
GNR/(bob dylan)- Knocking on heavens door (i, z, r) i, z, r, pierwsze solo

Ex Emg 81 /60 ->Dunlop GCB-95 -> Valveking 112 (Celestion Vintage 30)
Nie mam polskich znakow!

10

Odp: Tabulatury i Piosenki dla Początkujących

Deep Purple- Smoke on the water [i],[z],[r]
ACDC-Higway to hell [z],[r],[s]

ESP LTD EC-50             Roland Micro Cube
GG:18350838         Mój kanał Youtube
Regulamin dobrego ucznia - gdy szkoła się pali gaś ją benzyną

11

Odp: Tabulatury i Piosenki dla Początkujących

RHCP-Otherside [i][z][r][s] ogólnie cała piosenka, polecam te tabulatury http://www.ultimate-guitar.com/tabs/r/r … de_tab.htm
Three Days Grace-Never Too Late [i][z][r] taby: http://www.fretplay.com/tabs/t/three_da … -tab.shtml

12

Odp: Tabulatury i Piosenki dla Początkujących

Dodałbym do działu Elektryk piosenke Megadeth - Symphony of Destruction
i Diamond Head - Am I Evil

Epiphone Futura CUSTOM Prophecy EX, Cort KX-5 Katana, Fender CD-60 + Laney IRT Studio (CRATE FW 15R) + Harley Benton G212 V30 + Digitech Bad Monkey + MXR M-116 Fullbore Metal + Zoom G3X

13

Odp: Tabulatury i Piosenki dla Początkujących

Creeping death - Metallica
Disconnect- Megadeth

Ex Emg 81 /60 ->Dunlop GCB-95 -> Valveking 112 (Celestion Vintage 30)
Nie mam polskich znakow!

14

Odp: Tabulatury i Piosenki dla Początkujących

Still got the blues - Gary More
Hey Joe - Jimmy Hendrix

Epiphone Futura CUSTOM Prophecy EX, Cort KX-5 Katana, Fender CD-60 + Laney IRT Studio (CRATE FW 15R) + Harley Benton G212 V30 + Digitech Bad Monkey + MXR M-116 Fullbore Metal + Zoom G3X

15

Odp: Tabulatury i Piosenki dla Początkujących

Milusio byłoby znaleźć tu coś Pink Floydów. :3

16

Odp: Tabulatury i Piosenki dla Początkujących

pisz propozycje na gg to zamieszczę wink

17

Odp: Tabulatury i Piosenki dla Początkujących

Cześć, jestem tu nowa i właściwie to początkująca :). Swoją gitarę mam tak naprawdę od przedwczoraj (klasyk, Yamaha C30M), a uczę się od września pod czujnym okiem sora od muzyki. Chciałabym was poprosić o piosenki, które uczyliście się grać na początku, najlepiej na palcowanie, bo to mi chyba najlepiej wychodzi, lepiej od bić, których nadal do końca nie mogę rozgryźć ;). Na razie siedzę nad piosenkami The Animals - House of the rising sun i Metallica - Nothing else matters. Myślicie, że to dobry wybór ?

"Atakuj swoje instrumenty! Nie pozwól, by zaatakowały ciebie!" ~ Billy Joe Armstrong

18

Odp: Tabulatury i Piosenki dla Początkujących

Wybór jak najbardziej trafny.
Polecic ci mogę natomiast stronkę. Na ten moment 22 znane utwory podane w bardzo przystępny sposób. Myślę, że od tego warto zacząc wink

19

Odp: Tabulatury i Piosenki dla Początkujących

Hey - Teksański do poćwiczenia na bicie, banał. I piosenki Dżemu do tego, a z tabów polecam Ci intro do Led Zeppelin - Stairway to Heaven, jak poćwiczysz trochę intra to już nie będzie tak strasznie. wink

Odp: Tabulatury i Piosenki dla Początkujących

Dobre jest też Wicked game. Zobaczcie sobie na jutubach jak stone sour to gra. Polecam wink

21

Odp: Tabulatury i Piosenki dla Początkujących

Ja bym polecił Red Hot'ów Californication.