Temat: Łatwa piosenka na akustyka

Cześc szukam jakiejś łatwej piosenki na gitarę akustyczną. Może byc polska lub zagraniczna.
WAŻNE: moglibyście mi podac chwyty i tempo (np EaDDAe, dół góra góra)??? ponieważ nie rozumiem wykresów na stronach z tempem i chwytami piosenek... sad
Z góry dzięki smile

2

Odp: Łatwa piosenka na akustyka

http://www.gitaradlapoczatkujacych.pl/f … php?id=641

Chwyty - trzeba odszukać
Bicie - trzeba obczaić

Tak młody jak dzisiaj nie będziesz już nigdy. Bierz gitarę i graj!
Gitara dla początkujących
Ćwiczenia słuchu dla gitarzystów

3

Odp: Łatwa piosenka na akustyka

to mógłby mi ktoś wyjaśnic co da się z tego odczytac ????
e|-3---3---3---3---5---5---5---5---0---0---0---0---0---0---0---0-------|
B|---5---5---5---5---5---5---5---5---5---5---5---5---5---5---5---------|
G|---------------------------------------------------------------------|
D|---------------------------------------------------------------------|
A|---------------------------------------------------------------------|
E|---------------------------------------------------------------------|

4

Odp: Łatwa piosenka na akustyka

To jest tabulatura gitarowa

e|-3---3---3---3---5---5---5---5---0---0---0---0---0---0---0---0-------|
B|---5---5---5---5---5---5---5---5---5---5---5---5---5---5---5---------|

e jest to struna 1 (e1)
B jest to struna na 2 (h2 lub b2)

3---3---3---3---5---5---5---5---0---0---0---0---0---0---0---0--
          ---5---5---5---5---5---5---5---5---5---5---5---5---5---5---5---------|

te cyferki oznaczajo na jakim progu masz przycisnac strune czyli tutaj
Najpierw 1 strune na 3 progu, a pozniej 2 na 5 progu

Tutaj masz  link do do kursu
http://www.gitaradlapoczatkujacych.pl/tabulatura.html

Satani, satani in amus dignita
Satani, satani e vade retro sagitta
Schecter Omen 6 + Crate Fw 15 R + Krank Distortion Maximus[DIY]