1

Temat: Ewa Farna - Nie przegap

Na początek chcę się ponownie przywitać, bo nie pisałem tu od baardzo dawna wink

A teraz do rzeczy. W piosence "Nie przegap" Ewy Farnej jest taki fajny riff. Czy ma ktoś może do niego tabulaturę? Szukałem w Googlach ale nic nie znalazłem hmm

2

Odp: Ewa Farna - Nie przegap

Ooo ja się przyłączam big_smile i witam wszystkich wink Jakby ktoś miał taby do którejkolwiek z piosenek EF byłbym wdzięczny bardzo ;D (mam tylko Cicho). pozdrawiam

3

Odp: Ewa Farna - Nie przegap

http://www.911tabs.com/tabs/e/ewa_farna/

bierzcie i jedzcie z tego wszyscy, bowiem znalezienie tego zajęło mi jakieś 5 sekund

4

Odp: Ewa Farna - Nie przegap

Ale tam chyba nie ma tabów do tej konkretnej piosenki...

Tak młody jak dzisiaj nie będziesz już nigdy. Bierz gitarę i graj!
Gitara dla początkujących
Ćwiczenia słuchu dla gitarzystów

5

Odp: Ewa Farna - Nie przegap

Tak jest, zgadzam się z przedmówcą albowiem zaniżyłeś panki smile

6

Odp: Ewa Farna - Nie przegap

Darek napisał/a:

Ale tam chyba nie ma tabów do tej konkretnej piosenki...

dobra przesadziłem z tym 'bierzcie i jedzcie z tego wszyscy..'
chodziło mi o użytkownika Arti13 ;P

7

Odp: Ewa Farna - Nie przegap

Dzięki Panki wink

8

Odp: Ewa Farna - Nie przegap

Wiele piosenek Farnej faktycznie jest łatwo znaleźć, przykładowo tutaj jest dobrze rozpisana EWAkuacja. Co do "Nie przegap" nic sensownego jednak nie ma hmm A szkoda, bo ten riff brzmi ciekawie.

Jakby ktoś go znalazł lub rozpracował byłbym wdzięczny.

9

Odp: Ewa Farna - Nie przegap

Witam i pozdrawiam wszystkich zważywszy, że  to mój pierwszy post.
Także szukałem w necie tego riff'u i nic z tego wiec wziąłem organki mojej córki, coś tam poklikałem... gitarka dla sprawdzenia i w sumie to jakby tak leciało:

E||-----------------0----|----------------------|----------------------|
B||------------2----2----|-----------------2----|-----------------2----|
G||-------2--------------|------------2----2----|------------2----2----|
D||--4-------------------|-------0--------------|-------0--------------|
A||----------------------|--4-------------------|----------------------|
E||----------------------|----------------------|----------------------|

----------------------|-------0-------------------|
----------------------|-----------------2---------|
------------2---------|--2---------2---------2----|
-------0--------------|--0------------------------|
--4-------------------|---------------------------|
----------------------|---------------------------|

Mile widziane poprawki ;]

10

Odp: Ewa Farna - Nie przegap

[odkop]
Parę dni temu znalazłem porządną tabulaturę. Ten riff leci tak:

e|------------------------------------------------| 
B|------------------------------------------------|
G|---------9----------------------------7---6-----|
D|-------7----------7-------7-------6-7---7---7---|  
A|---7h9----------7-------7-----7-7---------------|
E|------------9-9------10-------------------------|

Brzmi nieźle smile