41 (edytowany przez Rames 2010-03-06 14:41:23)

Odp: Zabawa forumowa - jaka to melodia :P

Skoro mpx nic nie wstawił to ja wstawie smile 

Edit: Lol nie zuaważyłem hmm big_smile

42

Odp: Zabawa forumowa - jaka to melodia :P

Rames napisał/a:

Skoro mpx nic nie wstawił to ja wstawie smile 


||------------------|-----------------|-----------------|-------------------||
||------1-----1---1-|-----1-----1-----|-----1-----1---1-|-----1-----1---1--||
||----2-----2-------|---3-----3-----3-|---0-----0-------|---2-----2---------||
||--0-----0-----0---|-0-----0-----0---|-3-----2-----3---|-0-----0-----0-----||
||------------------|-----------------|-----------------|------------------||
||------------------|-----------------|-----------------|-------------------||

Ja wstawiłem ;P

43

Odp: Zabawa forumowa - jaka to melodia :P

nikt nie wie, to może ja:

||-----------------------------|-----------------------------|
||-------------------3---------|-------------------3---------|
||-------------------2-----2---|-------------------2-----2---|
||--2-----2----------0-----2---|--2-----2----------0-----2---|
||--2-----2--X--X----------0---|--2-----2--X--X----------0---|
||--0-----0--X--X--------------|--0-----0--X--X--------------|

44

Odp: Zabawa forumowa - jaka to melodia :P

JailBreak bejbe

Angus Young The Best

45

Odp: Zabawa forumowa - jaka to melodia :P

  e          d           c           d
E------0----------0-----------0-----------0-----|
B-----0-0----------0-----------0-----------0----|
G----9---9------7---7-7-----5---5-5-----7---7-7-|
D---9-----9----7-----7-----5-----5-----7-----7--|
A--7----------5-----------3-----------5---------|
E-----------------------------------------------|

46

Odp: Zabawa forumowa - jaka to melodia :P

nikt nie wie

E ----------------------|--------------------|---------------------|---------------------|
B ->12--13-13-12-13-13--|--------------------|---------------------|---------------------|
G ->0---0--0--0--0--0---|->11--12-12-11-12---|---------------------|---------------------|
D ----------------------|->0---0--0--0--0----|-11-12-11-12-11------|-11--12-11-12-11-----|
A ----------------------|--------------------|-0--0--0--0--0--12---|-0---0--0--0--0--12--|
E ----------------------|--------------------|---------------------|---------------------|

47

Odp: Zabawa forumowa - jaka to melodia :P

Hmm wiecie co wam powiem? Jak dla mnie ta zabawa nie ma sensu.Lepszym pomysłem było wklejanie kawałków utworów, ponieważ nie każdy zna wszystkie utwory ejsidisi, bitelsow czy innych klasyków aby był wstanie sam to zagrac i zgadnąć. Poza tym dochodzi jeszcze tempo, ewentualne przerwy także nieznający utworów zagrają na jedno kopyto.Ewentualnie można by było wklejać i taby i dany kawałek utworu. Takie jest moje zdanie na ten temat nie każdemu się musi ono podobać.

48

Odp: Zabawa forumowa - jaka to melodia :P

Mi też sie bardziej podobało ja wrzucane były nagrania.

Poza byciem gitarzystą, jestem wielkim fanem gitary. Kocham ten cholerny instrument. - Steve Vai
//Washburn WI24 (TESLA Plasma 2 set) -> VOX V845 -> Ashdown G60R, Epiphone DR100
GG: 7365993

49

Odp: Zabawa forumowa - jaka to melodia :P

Big Jack

Angus Young The Best

50

Odp: Zabawa forumowa - jaka to melodia :P

E|---------|---------|---------|---------|
B|---------|---5-6-6-|-6-8-5-5-|---------|
G|---5-7-7-|-7-------|---------|--7-5-7--|
D|-7-------|---------|---------|---------|
A|---------|---------|---------|---------|
E|---------|---------|---------|---------|

E|---------|---------|---------|---------|
B|---------|---5-6-6-|-6-8-5-5-|---------|
G|---5-7-7-|-7-------|---------|--7-5-7--|
D|-7-------|---------|---------|---------|
A|---------|---------|---------|---------|
E|---------|---------|---------|---------|

Bawi się ktoś jeszcze? big_smile

SEX, Drugs, Rock'n Roll
Dean Vendetta 1.0 + MXR dist+diy + Kustom KG112FX
GG:2539337

51

Odp: Zabawa forumowa - jaka to melodia :P

Piraci z karaibów wink

Łapcie to:

 
---------12\-----------------------------------------3 5 3 3----- 
---------12\----------------------------5------------3---------
------X--12\--------X-----------0---5---5------0-----------------
------X-------------X----X-------5--5---7\-------------------5---
------X--12\--------X----X--0-2--5-7------------------------------
------------0------------X-----------------2\3--------------------
 
 
 
------------------------------------------------------------------
----3---3----------------------------------------5----------------
--4-5---5--4-5--4---------------------5--------5-7----------------
------------------5-------------------5--------------5-7--5-------
--------------------------------5--7----7------------5-7--5-------
-----------------------5-------------------------------------5-7\-
 
-----------------------------------------------------9--10--9-----
----------8-10-8-------------------------------------7--10--7-----
----------7------7-------7--7--7-----7-------------------7--7-----
-------------------9---7-7--9--7-7---7------------9---------------
-------------------7-7-10--------10--7----------------------------
----0--------------------------------------7----------------------

Ostrzegam że trudne (po tabie, bo jakby usłyszeć to wystarczy pierwsze pięć nutek).

52 (edytowany przez zygmen 2010-08-30 16:43:41)

Odp: Zabawa forumowa - jaka to melodia :P

Piraci z Karabinów: Jestem piratem?
Możemy używać tej stronki, jakość nagrywania w połączeniu z niektórymi laptopowymi mikrofonami nie jest najlepsza, ale chociaż możliwa do zrozumienia.
moja mała próbka (sorry za okropną jakość)
http://vocaroo.com/?media=v5yCtu4ejuofTB2Ng
EDIT
i zostałem uprzedzony

53 (edytowany przez Panki 2010-08-30 19:25:23)

Odp: Zabawa forumowa - jaka to melodia :P

piraci z karaibow tam gdzie kropka to trzeba chwilke przytrzymac ;p

E|7 5 3 2. 2 5 8 7. 7 5 3 2. 5 3 2 0.

kreth wyluzuj, ma byc cos prostego big_smile

54

Odp: Zabawa forumowa - jaka to melodia :P

Gorzkie żale?

Squier bullet stratocaster HSS | Ibanez GRG250DKX
Stagg 20w | Hiwatt maxwatt G50 R

55

Odp: Zabawa forumowa - jaka to melodia :P

No i wątek umarł. A tak btw, wiem że prawie rok temu to było zamieszczone, ale ten tab krethha to chyba little wing.

56

Odp: Zabawa forumowa - jaka to melodia :P

no tak.