1 (edytowany przez Rames 2010-03-03 14:18:36)

Temat: Zabawa forumowa - jaka to melodia :P

cześć ;] co myślicie o zrobieniu takiej prostej zabawy forumowej - "jaka to melodia?" ? nie trudno się domyślić o co w tym chodzi big_smile jakaś osoba nagrywa jakiś gitarowy kawałek (nie całą piosenke tylko najlepiej jakiś charakterystyczny riff), a następna osoba musi podać jego tytuł oraz nagrać jakiś swój do zgadnięcia tongue nie chodzi tu o to żeby się pochwalić umiejętnościami gry - lepiej nagrywać coś prostego żeby dało się zgadnąć i było zabawnie smile najlepiej wrzucać kawałki na jakiś hosting z którego bezpośrednio da się je odsłuchiwać ;] no to ja zacznę

http://www.supload.com/listen?s=sqge9j

jaka to melodia?

2

Odp: Zabawa forumowa - jaka to melodia :P

Ah, chodził mi po głowie podobny pomysł.

What?

3

Odp: Zabawa forumowa - jaka to melodia :P

nie mam pojęcia co to jest ;/ ale zabawa fajna big_smile ja bym zagrał wink

4

Odp: Zabawa forumowa - jaka to melodia :P

ja tez nie mam pojecia

ESP LTD EC-50             Roland Micro Cube
GG:18350838         Mój kanał Youtube
Regulamin dobrego ucznia - gdy szkoła się pali gaś ją benzyną

5 (edytowany przez grzesiek2805 2010-03-03 20:20:53)

Odp: Zabawa forumowa - jaka to melodia :P

kurde znajomy kawałek smile widze ktoś tu gra na basie tongue
Edit:
Mam pytanie: Czy gdy udzielamy odpowiedzi to od rauy w tym samym poście musimy wrzucić nastepny kawałek? A co bedzie jeżeli odpowiedz bedzie zła?? tongue

Poza byciem gitarzystą, jestem wielkim fanem gitary. Kocham ten cholerny instrument. - Steve Vai
//Washburn WI24 (TESLA Plasma 2 set) -> VOX V845 -> Ashdown G60R, Epiphone DR100
GG: 7365993

6

Odp: Zabawa forumowa - jaka to melodia :P

trudno o złą odpowiedź no może, że ktoś na nie nastrojnej gitarze gra big_smile ustalmy, że możemy wrzucić odrazu po zgadnięciu następny kawałek, ale jak ktoś nie chce to nie wrzuca tylko zgaduje i wtedy wrzuci jakiś inny chętny ;]

7 (edytowany przez bluesman 2010-03-04 16:12:34)

Odp: Zabawa forumowa - jaka to melodia :P

white stripes - seven nation army

8 (edytowany przez Gitarzystek 2010-03-04 17:24:58)

Odp: Zabawa forumowa - jaka to melodia :P

jak nikt nie wrzuca to może ja smile

http://www.supload.com/sound_confirm.php?get=199331830.wav

łatwe i wstyd nie znać big_smile


edit

sorry że trzeba ściągać ;/

9

Odp: Zabawa forumowa - jaka to melodia :P

rolling stones - satisfaction

10

Odp: Zabawa forumowa - jaka to melodia :P

http://www.supload.com/sound_confirm.ph … 925836.wav

ESP LTD EC-50             Roland Micro Cube
GG:18350838         Mój kanał Youtube
Regulamin dobrego ucznia - gdy szkoła się pali gaś ją benzyną

11

Odp: Zabawa forumowa - jaka to melodia :P

Nie mam najmniejszego pojęcia tongue

12

Odp: Zabawa forumowa - jaka to melodia :P

Dam podpowiedz: Deep Purple

ESP LTD EC-50             Roland Micro Cube
GG:18350838         Mój kanał Youtube
Regulamin dobrego ucznia - gdy szkoła się pali gaś ją benzyną

13

Odp: Zabawa forumowa - jaka to melodia :P

...to może od razu tytuł napisz...? hmm

"Va'esse deireádh eap eigean..."

14

Odp: Zabawa forumowa - jaka to melodia :P

Kurde, ja tez nie wiem, niby znane ale nie wiem

Angus Young The Best

15

Odp: Zabawa forumowa - jaka to melodia :P

Black night

ESP LTD EC-50             Roland Micro Cube
GG:18350838         Mój kanał Youtube
Regulamin dobrego ucznia - gdy szkoła się pali gaś ją benzyną

16

Odp: Zabawa forumowa - jaka to melodia :P

Weź sobie kiedyś sprawdź na wikipedii co to ironia...

"Va'esse deireádh eap eigean..."

17

Odp: Zabawa forumowa - jaka to melodia :P

hehe xD dobra Karol zgadł to co dalej?? tongue

Poza byciem gitarzystą, jestem wielkim fanem gitary. Kocham ten cholerny instrument. - Steve Vai
//Washburn WI24 (TESLA Plasma 2 set) -> VOX V845 -> Ashdown G60R, Epiphone DR100
GG: 7365993

18

Odp: Zabawa forumowa - jaka to melodia :P

nikomu się nie chce wrzucać ;/

19

Odp: Zabawa forumowa - jaka to melodia :P

A może żeby było łatwiej to zamiast nagrywać wrzucajcie jakiś drobny urywek tabulatury, wówczas trzeba będzie to sobie zagrać, więc i efekt edukacyjny od razu mamy smile

Tak młody jak dzisiaj nie będziesz już nigdy. Bierz gitarę i graj!
Gitara dla początkujących
Ćwiczenia słuchu dla gitarzystów

20

Odp: Zabawa forumowa - jaka to melodia :P

Myśle że dobry pomysł

ESP LTD EC-50             Roland Micro Cube
GG:18350838         Mój kanał Youtube
Regulamin dobrego ucznia - gdy szkoła się pali gaś ją benzyną

21

Odp: Zabawa forumowa - jaka to melodia :P

a--------------2------------3-------------4------------2--2-
e-------0---1------0--1---------0--1---------0--1----------
ESP LTD EC-50             Roland Micro Cube
GG:18350838         Mój kanał Youtube
Regulamin dobrego ucznia - gdy szkoła się pali gaś ją benzyną

22

Odp: Zabawa forumowa - jaka to melodia :P

coś metallici, ale nie wiem co...

23

Odp: Zabawa forumowa - jaka to melodia :P

Enter sandman?

24

Odp: Zabawa forumowa - jaka to melodia :P

Master of Puppets

Epiphone Les Paul Standard Plus + Marshall AFD DIY ;] (full lampa) + Dunlop GCB-95

25 (edytowany przez Panki 2010-03-05 17:17:03)

Odp: Zabawa forumowa - jaka to melodia :P

mpx zgadl :> nxt

e-||----------------------------------------||
B-||----------------------------------------||
G-||.----------------------7h9-------7-----.||
D-||.-7h9--7h9--7h9---7h9-------7h9-----9--.||
A-||----7----7----7-------------------------||
E-||----------------------------------------||

26

Odp: Zabawa forumowa - jaka to melodia :P

black sabbath - paranoid big_smile

27

Odp: Zabawa forumowa - jaka to melodia :P

     E  E  E  E  E  E  E  E    E  E  E  E  E  E  E  E
||--11-11-11-11-11-11-11-11-|-11-11-11-11-11-11-11-11-|
||o-12-12-12-12-12-12-12-12-|-12-12-12-12-12-12-12-12-|
||--11-11-11-11-11-11-11-11-|-11-11-11-11-11-11-11-11-|
||--------------------------|-------------------------|
||o-------------------------|-------------------------|
||--------------------------|-------------------------|


  Bm                B5         Bsus4
   E  E  E  E  E  E  E  E    E  E  E  E  E  E  E  E
|-10-10-10-10-10-10-14-14-|-14-12-12-12-12-12-12-12---||
|-12-12-12-12-12-12-12-12-|-12-12-12-12-12-12-12-12--o||
|-11-11-11-11-11-11-11-11-|-11-11-11-11-11-11-11-11---||
|-------------------------|---------------------------||
|-------------------------|--------------------------o||
|-------------------------|---------------------------||

coś trudniejszego (chyba)

28

Odp: Zabawa forumowa - jaka to melodia :P

AC/DC For Those About to Rock smile

Angus Young The Best

29

Odp: Zabawa forumowa - jaka to melodia :P

hehe, wiedziałem, że Dawisiek raz dwa wyczai big_smile

30

Odp: Zabawa forumowa - jaka to melodia :P

   e-------------------------------------------------    |--------------------------
   B-------6-----------------------------------------    |--------------------------
   G-5--8--------8-8B--6--5--6--5--------------------    |--------------------------
   D----------6--------------------8--6--8-8B--6--5--    |--6--5--6--5--6--5--6/5/3-
   A-------------------------------------------------    |--------------------------
2x E-------------------------------------------------  3x|--------------------------
Epiphone Les Paul Standard Plus + Marshall AFD DIY ;] (full lampa) + Dunlop GCB-95

31

Odp: Zabawa forumowa - jaka to melodia :P

po dwóch pierwszych dźwiękach rozpoznałem smile

Nirvana Smeels Like Spirit

32

Odp: Zabawa forumowa - jaka to melodia :P

e|--2--4--5---4--2--0--2--4--2-------4--0----4-2--|
b|--0--0--0---0--0--0--0--0--0-------0--0----0-0--|
g|------------------------------------------------|
D|------------------------------------------------|
A|------------------------------------------------|
E|------------------------------------------------|

Dawisiek, daj innym smile


oo i już wiadomo, że AC/DC ;d

33 (edytowany przez Sylwester 2010-03-05 18:55:29)

Odp: Zabawa forumowa - jaka to melodia :P

Ja wiem !
AC/DC - Hard As A Rock


To teraz ja:

G|--0---3---5---0-|---3---6-5-----|-0---3---5----3-|---0----(0)-------||
D|--0---3---5---0-|---3---6-5-----|-0---3---5----3-|---0----(0)-------||

Muzyka wyraża wszystko, co nie może być wypowiedziane, ale o czym nie można milczeć.

34

Odp: Zabawa forumowa - jaka to melodia :P

deep purple smoke on the wather

Epiphone Les Paul Standard Plus + Marshall AFD DIY ;] (full lampa) + Dunlop GCB-95

35

Odp: Zabawa forumowa - jaka to melodia :P

aaaaaaaa wiedział big_smile

Muzyka wyraża wszystko, co nie może być wypowiedziane, ale o czym nie można milczeć.

36

Odp: Zabawa forumowa - jaka to melodia :P

E|---------------------------------|-----------------------------------------
B|---------------------------------|---------------5-5---------5-------------
G|-7-----7-7-9-9-10-10-9-9-7-7-9-9-|-5-----5-5-7-7-----7-7-5-5---5-----------
D|---7-7---------------------------|---5-5-----------------------------------
A|---------------------------------|-----------------------------------------
E|---------------------------------|-----------------------------------------
(twice)

E|-----------------------------------|---------------------------------------
B|-----------------------------------|---------------------------------------
G|-----------------------------------|-----------------4-4---------4---------
D|-7-7-----7-7-9-9-10-10-9-9-7-7-9-9-|-5-5-----5-5-7-7-----7-7-5-5---5-------
A|-----7-7---------------------------|-----5-5-------------------------------
E|-----------------------------------|---------------------------------------

E|-----------------------------------|---------------------------------------
B|-----------------------------------|---------------------------------------
G|-----------------------------------|-----------------2-2---------2---------
D|-7-7-----7-7-9-9-10-10-9-9-7-7-9-9-|-3-3-----3-3-5-5-----5-5-3-3---3-------
A|-----7-7---------------------------|-----3-3-------------------------------
E|-----------------------------------|---------------------------------------

chyba tylko pierwszy takt by wystarczył big_smile

37

Odp: Zabawa forumowa - jaka to melodia :P

Iron Maiden fear of the dark?

Epiphone Les Paul Standard Plus + Marshall AFD DIY ;] (full lampa) + Dunlop GCB-95

38

Odp: Zabawa forumowa - jaka to melodia :P

się pytasz xD

39

Odp: Zabawa forumowa - jaka to melodia :P

G|------------------------5-----7B9R7--5~~---5-5-----
D|---7-7---7-7--7-7-7-7-------7-----------7-------7--

40

Odp: Zabawa forumowa - jaka to melodia :P

Gitarzystek napisał/a:

się pytasz xD

Ja nie słucham Maidenów dawno temu ją słyszałem i jak zagrałem na gitarze to mi sie skojarzyło tongue

Epiphone Les Paul Standard Plus + Marshall AFD DIY ;] (full lampa) + Dunlop GCB-95