1 (edytowany przez kateusz123 2012-06-22 18:35:19)

Temat: kancelarya zabiore cie

Ma ktos moze taby do intra tej pioesenki?? Jesli ktos ma taby do calej piosenki tez moze dac smile

2

Odp: kancelarya zabiore cie

Znalazłem w 15 sekund

http://www.chords.pl/chwyty/kancelarya/ … e_solowki/



Trudno było?

J&D l80 + T. Burton Greengo + Randall RX75RG2 + Coxx Cg-15

3

Odp: kancelarya zabiore cie

TO też znalazlem ale mi nie oto chodzi.


chodzi mi o intro w tym utworze.

4

Odp: kancelarya zabiore cie

Znalazlem chwyty


zwrotka: C G a F 4x

refren: F C G a, F C G, F C G a, F C G

Satani, satani in amus dignita
Satani, satani e vade retro sagitta
Schecter Omen 6 + Crate Fw 15 R + Krank Distortion Maximus[DIY]

5

Odp: kancelarya zabiore cie

http://www.chords.pl/chwyty/kancelarya/ … e_solowki/
pasuja wam te taby??

6

Odp: kancelarya zabiore cie

Intro
e|--------------------4-----------------------------------12---|
B|--12b14-12------------7b9--5--12b14-12--------------|
G|------------------4---------------------------------/9-------|
D|---------------------------------------------------------------|
A|---------------------------------------------------------------|
E|---------------------------------------------------------------|

e|----------------------------------------------------------|
B|----------------------------------------------------------|
G|--4--4/11-9-9---9-13------------9---6--4----------|
D|---------------------------9-9-11-----------------7----|
A|---------------------------------------------------------|
E|---------------------------------------------------------|

e|------------------------------------------------------------|
B|------------------------------------------------------------|
G|--4-4/11-9-9---9-13-------------9---9--------11-9--|
D|---------------------------9-9-11------------11---------|
A|-----------------------------------------------------------|
E|-----------------------------------------------------------|

e|------------------------------------------------------|
B|---9/12\9----7h9p7---------12b14---12-------|
G|--------------------------6/9-----------------------|
D|-----------------------------------------------------|
A|-----------------------------------------------------|
E|-----------------------------------------------------|

e|----------------------------------------------------|
B|----------------------------------------------------|
G|----------------------------------------------------|    iles tam razy w czasie ref
D|----9----6----9------9----6----------------------|
A|--7-7-9-4-7-7-9-5-7-9-4-7-9-5---------------|
E|--5-7-7-4-5-7-7-7-7-7-4-5-7-7---------------|

e|-------------------------------------------------------|
B|---12/14\12---12--12-12/14\12-12------------|
G|-------------------------------------------------------|
D|------------------------------------------------------|
A|------------------------------------------------------|
E|------------------------------------------------------|

e|-------------------9/12----|
B|-9/10\9--------------------|
G|---------9-9/11\9----------|
D|---------------------------|
A|---------------------------|
E|---------------------------|


e|------------------------9/12----|
B|-9/10\9------------------------|
G|-----------9-9/11\9------------|
D|---------------------------------|
A|--------------------------------|
E|--------------------------------|


e|-11/12\11-------11------------------------------|
B|-----------------12--12---14b16--16r14p12--|
G|----------------------------------------------------|
D|----------------------------------------------------|
A|----------------------------------------------------|
E|----------------------------------------------------|

e|-----------------------------------------------------|
B|-----------------------------------------------------|
G|-----------------------------------------------------|   ref
D|-----9---6----9------9----6-----------------------|
A|--7-7-9-4-7-7-9-5-7-9-4-7-9-5---------------|
E|--5-7-7-4-5-7-7-7-7-7-4-5-7-7---------------|

e|-----------------------------------------------------------|
B|----------------------------------------------5-5-5------|
G|----------------------------------4-4--4/6---------------|   
D|-----2--2~-----------2--4/6----------------------------|
A|-2-4--4----4-2~--4------------------------------------|
E|----------------------------------------------------------|

e|--12-----------------------------------------------------|
B|------12-------------------------------------------------|
G|----------11b13--13r11--9-11~---------------------|
D|----------------------------------------------------------|
A|----------------------------------------------------------|
E|----------------------------------------------------------|

e|-12b14---12-11-12-11---11-10---------------------------------------------|
B|-----------------------------------------12-9-12-9-10-9-12-9-10-9-9~-----|
G|------------------------------------------------------------------------------------|
D|------------------------------------------------------------------------------------|
A|------------------------------------------------------------------------------------|
E|------------------------------------------------------------------------------------|

e|--------------12-9-11-9---------7-4-5-4-4~----------------------------|
B|-7-5-7---9----------------12-5--------------------7-7b9--7-5-7~-----|
G|-----------------------------------------------------------------------------|   
D|-----------------------------------------------------------------------------|
A|-----------------------------------------------------------------------------|
E|-----------------------------------------------------------------------------|

e|-/9--11-11b13----------|
B|----------------------------|
G|-----------------------------|
D|----------------------------|
A|---------------------7------|
E|---------------------5------|

e|-------------------------------------------------------|
B|--------------------------------------------------------|
G|--4--4/11-9-9---9-13------------9---6--4--------|
D|---------------------------9-9-11---------------7----|
A|---------------------------------------------------------|
E|--------------------------------------------------------|

e|--------------------------------------------------------------|
B|--------------------------------------------------------------|
G|--4-4/11-9-9---9-13-------------9---9----------11-9--|
D|---------------------------9-9-11------------11-----------|
A|--------------------------------------------------------------|
E|---------------------------------------------------------------|

kiedyś znalazłem na YT filmik z tabami i przepisałem sobie je do notatnika tongue
mam nadzieje ,że są czytelne i pomogłem smile